Music


Guitar chords

go back for more music


Your Turn (Helloween)
A Asus4 A


A                    G#m F#m
Now there is this day, a lot of things are changing
E                        C#
Can't just kick it away, got to get things right
    F#m                  G#m  A
Sometimes it happens fast and nothin' seems to last
    D                               E
The thing that I once started isn't mine anymore
                 F#m     E
I guess now it's my turn


E |-----------------|---------0----------|
B |-----------------|---------2----------|
G |-----------------|---------2----------|
D |-----------------|---------2----------|
A |-------------0---|-0-2-0---0----------|
E |---0-0-0-0-2-----|-------------5/12---|


       A                        G#    F#m
You've got a face like a child, got a mind like a woman
     E                 C#
Your smile is warm and tender
  F#m                G#m   A
I hear the people say that I should stay away
     D                                  E
From you and all the problems you might bring


              F#m
They'll never know you
            E
Nobody ever knows what to do
              A           
They'll never see you cry
        F#m         E
They'll never know why


F#m G#   D    E    F#m G#    A    G#
Now it's your turn to  break free
F#m              E                 A
When you want it all you've got to see
F#m G#   D    E    F#m G#    A
Now it's your turn to  break free
                    D          E                            A     G#
Don't know when you want the life you've got to see what it means


A                 G# F#m                 E
See the little boy   holding mama's hand
    D                                     E
His eyes can see the things we've long forgotten
    F#m              G# A
The world is easy now    and somehow
     D                                  E
He's right until there is this day when Mickey Mouse must go away


     D    E    F#m G#    A    G#
It's your turn to  break free
F#m              E                 A
When you want it all you've got to see
F#m G#   D    E    F#m G#    A
Now it's your turn to  break free
                    D          E                            A 
Don't know when you want the life you've got to see what it means


E |-----------------|-----------------|-----------------|-----------------|
B |-3-2-------------|-2-3---2---------|-3-2-------------|-----------------|
G |-----2---------1-|---------2-------|-----2-2-4-4-----|-----------------|
D |-----------------|-----------------|-----------------|-4---2-----------|
A |-----------------|-----------------|-----------------|-----------------|
E |-----------------|-----------------|-----------------|-----------------|

E |-----0-2-4-2-0---|-----------------|-----------------|-----------------|
B |-0-2-----------2-|-2-0---0-2-2-----|---0-2-3-2-3-2-3-|-2-3-5-5---------|
G |-----------------|-----2-----------|-2---------------|-----------------|
D |-----------------|-----------------|-----------------|-----------------|
A |-----------------|-----------------|-----------------|-----------------|
E |-----------------|-----------------|-----------------|-----------------|

E |----9-10-9-------|--------------------|-----------------|--------------|
B |-10--------12-10-|-10-10-10\9-9-9-9\7-|-7-7-7\5-5-5-5\3-|-3-3-3\2-2-2--|
G |-----------------|--------------------|-----------------|--------------|
D |-----------------|--------------------|-----------------|--------------|
A |-----------------|--------------------|-----------------|--------------|
E |-----------------|--------------------|-----------------|--------------|

E |-----------------|
B |--0-0------------|
G |------2-2-1------|
D |-----------------|
A |-----------------|
E |-----------------|


               A
This world is crying to be free
     G#       F#m                 D
This world is dying can't you see
                         E
We need a turn to do it right
                   F#m
We need a mind revolution
                      Bm
To get away from this selfishness
             D            E
Stop playing blind, break free


    D    E    F#m G#    A    G#
It's your turn to  break free
F#m              E                 A
When you want it all you've got to see
F#m G#   D    E    F#m G#    A
Now it's your turn to  break free
                    D                           E           A
Don't know when you want the life you've got to see what it means 


A Asus4 A
A Asus4 A
A       -02220
Asus4   -02230
Bm      -24432
D       --0232
E       022100
F#m     244222
G#      466544
G#m     466444
        ______
        EADGBE
The music and lyrics published here are copyrighted and belong to their respective owners
BOFH Excuse #210: We didn't pay the Internet bill and it's been cut off.
Π