Music


Guitar chords

go back for more music


Ken Masters' Street Fighter Theme
I


E |------------------------|---------------------|
B |------------------------|---------------------|
G |-10------10-------------|---------------------|
D |------10----13-13-11-11-|-11-10--------10-----|
A |------------------------|-------13------------|
E |------------------------|---------------------|


II


E |---------------------------------------------------|---------------------------------------------|
B |-------11------------------------11----------------|-------11-13-14-13-11----11-13-11------------|
G |----10----13-12-10----10------10----13-12-10----10-|----10----------------13----------13-12-10-9-|
D |-10----------------13------10----------------13----|-10------------------------------------------|
A |---------------------------------------------------|---------------------------------------------|
E |---------------------------------------------------|---------------------------------------------|



E |---------------------------------------------------|----------------------------------------------|
B |-------11------------------------11----------------|-------11-13-14-13-11-------13-11-------------|
G |----10----13-12-10----10------10----13-12-10----10-|----10----------------13-12-------13-12-13-12-|
D |-10----------------13------10----------------13----|-10-------------------------------------------|
A |---------------------------------------------------|----------------------------------------------|
E |---------------------------------------------------|----------------------------------------------|


III


E |---------------------------------------|---------------------------------------|
B |----------11-------------13---13-11-13-|----------11-------------13---13-11-13-|
G |-10-12-13----13-12-10------------------|-10-12-13----13-12-10------------------|
D |----------------------11---------------|----------------------11---------------|
A |---------------------------------------|---------------------------------------|
E |---------------------------------------|---------------------------------------|


IV


E |------------------------------------------------|---------------------------------------------|
B |-------11-13-11---------------------------------|-11-------11-11---------------------13-13-13-|
G |----10----------13-12-13-12-10----10---10-12-13-|----13-12-------13-12-13-12-10-9-10----------|
D |-10----------------------------13---------------|---------------------------------------------|
A |------------------------------------------------|---------------------------------------------|
E |------------------------------------------------|---------------------------------------------|


E |---------------------------------------------------|------------------------------|
B |-13-11----11---------------------------------------|-11-13-14-13-13-11------------|
G |-------13----13-12-10----13-12-10----10---10-12-13-|-------------------13-9-12-10-|
D |----------------------10----------13---------------|------------------------------|
A |---------------------------------------------------|------------------------------|
E |---------------------------------------------------|------------------------------|
The music and lyrics published here are copyrighted and belong to their respective owners
BOFH Excuse #99: SIMM crosstalk.
Π